EXTREMODURO
SECCIONES  
  INICIO
  BIOGRAFÍA
  ROLLING STONES 2011: EXTREMODURO
  EL VIAJE INTIMO DE LA LOCURA
  CONCIERTOS EN RED
  DISCOGRAFÍA
  SINGLES
  RAREZAS Y COLABORACIONES
  FOTOGRAFÍAS
  ENTREVISTAS
  RECORTES
  BIBLIOGRAFIA
  VIDEOTECA
  VIDEOCLIPS
  ENTRADAS
  ACORDES
  => A Fuego
  => Abrazado a la tristeza
  => Amor castúo
  => Bribriblibli
  => Buscando una luna
  => Correcaminos estate al loro
  => De acero
  => Tu corazon
  => Ama, ama, ama y ensancha el alma
  => La carrera
  => Mezclar agua con sed
  => Ni principes ni princesas
  => Necesito drogas y amor
  => La vereda de la puerta de atras
  => Bulerias de la sangre caliente
  => Primer movimiento: El sueño
  => Segundo movimiento: Lo de fuera
  => Tercer movimiento: Lo de dentro
  => Cuarto Movimiento
  => Coda flamenca (Otra realidad)
  DIBUJOS & PINTURAS
  CARICATURAS (VIZCARRA)
  DIBUJOS (AZAGRA)
  CURIOSIDADES
  ENCUESTA
  PUZZLES
  FONDOS DE ESCRITORIO
  AVATARES
  LINKS
  TRIBUTO A...
  CONTACTO
  CONTADOR DE VISITAS
Sube la marea: 180289 visitantes
Abrazado a la tristeza

E||------------------3--------|--2--------0--------------||
B||---------1-----------1-----|-----1----------1-----1---||
G||*-----2-----2-----------2--|--------2----------2-----*||
D||*--------------2-----------|-------------------------*||
A||---0-----------------------|--------------------------||
E||---------------------------|--------------------------||


                                                       
---------------------------|--------------------------||
------------------0--------|--------------------------||
*--------0-----------0-----|--2--------0-------------*||
*-----2-----2-----------2--|-----2----------2--------*||
---------------2-----------|--------2-----------------||
---0-----------------------|-------------------3--2---||


                                                       
------------------3--------|--2--------0--------------||
---------1-----------1-----|-----1----------1-----1---||
*-----2-----2-----------2--|--------2----------2-----*||
*--------------2-----------|-------------------------*||
---0-----------------------|--------------------------||
---------------------------|--------------------------||


                                                       
---------------------------|--------------------------||
------------------0--------|--------------------------||
*--------0-----------0-----|--2--------0-------------*||
*-----2-----2-----------2--|-----2----------2--------*||
---------------2-----------|--------2-----------------||
---0-----------------------|-------------------3--2---||


                                                                               
--------------------------|-------------------------|--------------------------|
-----------------0--------|-------------------------|-----------------0--------|
--------0-----------0-----|--2--------0-------------|--------0-----------0-----|
-----2-----2-----------2--|-----2----------2-----2--|-----4-----4-----------4--|
--3-----------3-----------|--------3----------3-----|--5-----------5-----------|
--------------------------|-------------------------|--------------------------|


                                                                              
-------------------------|--------------------------|-------------------------|
-------------------------|-----------------0--------|-------------------------|
--2--------0-------------|--------0-----------0-----|--2--------0-------------|
-----4----------4-----4--|-----2-----2-----------2--|-----2----------2--------|
--------5----------5-----|--------------2-----------|--------2----------------|
-------------------------|--0-----------------------|-------------------3--2--|


                                                                               
--------------------------|-------------------------|-----------------3--------|
-----------------0--------|-------------------------|--------1-----------1-----|
--------0-----------0-----|--2--------0-------------|-----2-----2-----------2--|
-----2-----2-----------2--|-----2----------2--------|--------------2-----------|
--------------2-----------|--------2----------------|--0-----------------------|
--0-----------------------|-------------------3--2--|--------------------------|


                                                                              
--2--------0-------------|-----------------3--------|--2--------0-------------|
-----1----------1-----1--|--------1-----------1-----|-----1----------1-----1--|
--------2----------2-----|-----2-----2-----------2--|--------2----------2-----|
-------------------------|--------------2-----------|-------------------------|
-------------------------|--0-----------------------|-------------------------|
-------------------------|--------------------------|-------------------------|


                                                                               
--------------------------|-------------------------|--------------------------|
-----------------0--------|-------------------------|-----------------0--------|
--------0-----------0-----|--2--------0-------------|--------0-----------0-----|
-----2-----2-----------2--|-----2----------2--------|-----2-----2-----------2--|
--------------2-----------|--------2----------------|--------------2-----------|
--0-----------------------|-------------------3--2--|--0-----------------------|


                                                                              
-------------------------|-----------------3--------|--2--------0-------------|
-------------------------|--------1-----------1-----|-----1----------1-----1--|
--2--------0-------------|-----2-----2-----------2--|--------2----------2-----|
-----2----------2--------|--------------2-----------|-------------------------|
--------2----------------|--0-----------------------|-------------------------|
-------------------3--2--|--------------------------|-------------------------|


                                                                               
-----------------3--------|--2--------0-------------|--------------------------|
--------1-----------1-----|-----1----------1-----1--|-----------------0--------|
-----2-----2-----------2--|--------2----------2-----|--------0-----------0-----|
--------------2-----------|-------------------------|-----2-----2-----------2--|
--0-----------------------|-------------------------|--------------2-----------|
--------------------------|-------------------------|--0-----------------------|


                                                                              
-------------------------|--------------------------|-------------------------|
-------------------------|-----------------0--------|-------------------------|
--2--------0-------------|--------0-----------0-----|--2--------0-------------|
-----2----------2--------|-----2-----2-----------2--|-----2----------2--------|
--------2----------------|--------------2-----------|--------2----------------|
-------------------3--2--|--0-----------------------|-------------------3--2--|


                                                                               
--------------------------|-------------------------|--------------------------|
-----------------0--------|-------------------------|-----------------0--------|
--------0-----------0-----|--2--------0-------------|--------0-----------0-----|
-----2-----2-----------2--|-----2----------2-----2--|-----4-----4-----------4--|
--3-----------3-----------|--------3----------3-----|--5-----------5-----------|
--------------------------|-------------------------|--------------------------|


                                                                              
-------------------------|--------------------------|-------------------------|
-------------------------|-----------------0--------|-------------------------|
--2--------0-------------|--------0-----------0-----|--2--------0-------------|
-----4----------4-----4--|-----2-----2-----------2--|-----2----------2--------|
--------5----------5-----|--------------2-----------|--------2----------------|
-------------------------|--0-----------------------|-------------------3--2--|


                                                          
-------------------|------------------|------------------||
-------------------|------------------|------------------||
-------------------|------------------|------------------||
-------------------|------------------|------------------||
-------------------|------------------|------------------||
--0----------------|------------------|------------------||

DISCOGRAFÍA  
 
 
Publicidad  
   
DESCARGA SU BIBLIOGRAFÍA  
   
=> ¿Desea una página web gratis? Pues, haz clic aquí! <=