EXTREMODURO
SECCIONES  
  INICIO
  BIOGRAFÍA
  ROLLING STONES 2011: EXTREMODURO
  EL VIAJE INTIMO DE LA LOCURA
  CONCIERTOS EN RED
  DISCOGRAFÍA
  SINGLES
  RAREZAS Y COLABORACIONES
  FOTOGRAFÍAS
  ENTREVISTAS
  RECORTES
  BIBLIOGRAFIA
  VIDEOTECA
  VIDEOCLIPS
  ENTRADAS
  ACORDES
  => A Fuego
  => Abrazado a la tristeza
  => Amor castúo
  => Bribriblibli
  => Buscando una luna
  => Correcaminos estate al loro
  => De acero
  => Tu corazon
  => Ama, ama, ama y ensancha el alma
  => La carrera
  => Mezclar agua con sed
  => Ni principes ni princesas
  => Necesito drogas y amor
  => La vereda de la puerta de atras
  => Bulerias de la sangre caliente
  => Primer movimiento: El sueño
  => Segundo movimiento: Lo de fuera
  => Tercer movimiento: Lo de dentro
  => Cuarto Movimiento
  => Coda flamenca (Otra realidad)
  DIBUJOS & PINTURAS
  CARICATURAS (VIZCARRA)
  DIBUJOS (AZAGRA)
  CURIOSIDADES
  ENCUESTA
  PUZZLES
  FONDOS DE ESCRITORIO
  AVATARES
  LINKS
  TRIBUTO A...
  CONTACTO
  CONTADOR DE VISITAS
Sube la marea: 180256 visitantes
Amor castúo

Intro
e |------------------|------------------|--------------------|
B |------------------|------------------|--------------------|
G |------------------|------------------|--------------------|
D |-7-7-8-7----------|-----7-5----------|---7-7-8-7----------|
A |-5-5------7-7-8-7-|-8-8------5--7----|---5-5------7-7-8-7-|
E |----------5-5-----|-6-6------3--5----|------------5-5-----|

e |-----------------------|
B |-----------------------|
G |-----------------------|
D |-------6-----------6---|
A |-8-8-8---8---8-8-8---8-|
E |-6-6---------6-6-------|


e ||---------------------------------------------------------|
B ||---------------------------------------------------------|
G ||--7-7----------------------------------------------------|
D ||--7-7----------7-7----------8-8----------5---------7-----|
A ||--5-5----------7-7----------8-8----------5---------7-----|
E ||---------------5-5----------6-6----------3---------5-----|
   1. Paso las    horas    sin comer   pinto la vida sin papel
   2. Primero  rompo el corazón de un mundo que no puedes ver

e |-------------------------------------||
B |-------------------------------------||
G |--7-7----------------6-----------6---||
D |--7-7---7------8-8-8---8---8-8-8---8-||
A |--5-5---7------8-8---------8-8-------||
E |--------5------6-6---------6-6-------|| x2
     vuelo en el aire sin motor
     luego me vuelvo a mi rincón

e |------------------------------------------------------------|
B |-------5----------------------------------------------------|
G |-7-7-7---7---7-7-7-7-7-7-7-7-----------5--------------------|
D |-7-7---------5-5-5-5-5-5-5-5-----7-7-7---7----5-------7-----|
A |-5-5---------5-5-5-5-5-5-5-5-----5-5----------5-------7-----|
E |---------------------------------5-5----------3-------5-----|
     Encerrado en mi habitación    creo que  ya salgo me cargué


e |------------------------------------------------------------|
B |-------5----------------------------------------------------|
G |-7-7-7---7---7-7-7-7-7-7-7-7-----------5--------------5-----|
D |-7-7---------5-5-5-5-5-5-5-5-----7-7-7---7------7-7-7---7---|
A |-5-5---------5-5-5-5-5-5-5-5-----5-5------------5-5---------|
E |---------------------------------5-5------------5-5---------|
      de un    cabezazo    la pared



e |-------------------------------------------|
B |-------------------------------------------|
G |---4-4-4-4---------------------2-2-2-2-----|
D |---4-4-4-4---4-4-4-4---5-5-5---2-2-2-2-----|
A |---2-2-2-2---4-4-4-4---5-5-5---0-0-0-0-----|
E |-------------2-2-2-2---3-3-3---------------|  x6

Cuando empieza la 5a vez entra la guitarra solista y
cuando termina la 6a empieza la letra.

Estribillo:

e |-------------------------------------------|
B |-------------------------------------------|
G |---4-4-4-4---------------------2-2-2-2-----|
D |---4-4-4-4---4-4-4-4---5-5-5---2-2-2-2-----|
A |---2-2-2-2---4-4-4-4---5-5-5---0-0-0-0-----|
E |-------------2-2-2-2---3-3-3---------------|  x4

       Me  levanteeeeeeeeeeeeeeeeeeeeeeeeeeeee
       hasta  los  huevos  de  vivir
       Te  vi  pasaaaaaaaaaaaaaaaaaaaaaaaaaaaaar
       y  ahora  ya  vuelvo  a  sonreír


e |-----------------------------------------------------------|
B |-----------------------------------------------------------|
G |-----------------------------------------------------------|
D |-----9--------10-11-10------9-------9-------9-------9------|
A |-7-9---7----9-----------7-7-7---7-7-7---7-7-7---7-7-7------|
E |-----------------------------------------------------------|

      Pasar querría el día junto a ti
      Pasar querría el día junto a ti


e |-------------------------------------------|
B |-------------------------------------------|
G |---4-4-4-4---------------------2-2-2-2-----|
D |---4-4-4-4---4-4-4-4---5-5-5---2-2-2-2-----|
A |---2-2-2-2---4-4-4-4---5-5-5---0-0-0-0-----|
E |-------------2-2-2-2---3-3-3---------------|  x4

       Hoy  me  soñé  al  despertar
       que  te  follaba  sin  parar
       siempre  lo  mismo  y  desperté
       ya  no  me  vuelvo  a  masturbar

Aqui la guitarra ritmica(Robe) no hace nada por eso
no lo he representado.

Y así me paso el día entero
estoy mejor que bien
y tengo el mundo entero a mis pies.

O tengo dentro mil infiernos
y se me cae la piel a cachos
y a veces pierdo
y a veces pierdo la razón.

Estribillo

Solo

Estribillo x2

DISCOGRAFÍA  
 
 
Publicidad  
   
DESCARGA SU BIBLIOGRAFÍA  
   
=> ¿Desea una página web gratis? Pues, haz clic aquí! <=