EXTREMODURO
SECCIONES  
  INICIO
  BIOGRAFÍA
  ROLLING STONES 2011: EXTREMODURO
  EL VIAJE INTIMO DE LA LOCURA
  CONCIERTOS EN RED
  DISCOGRAFÍA
  SINGLES
  RAREZAS Y COLABORACIONES
  FOTOGRAFÍAS
  ENTREVISTAS
  RECORTES
  BIBLIOGRAFIA
  VIDEOTECA
  VIDEOCLIPS
  ENTRADAS
  ACORDES
  => A Fuego
  => Abrazado a la tristeza
  => Amor castúo
  => Bribriblibli
  => Buscando una luna
  => Correcaminos estate al loro
  => De acero
  => Tu corazon
  => Ama, ama, ama y ensancha el alma
  => La carrera
  => Mezclar agua con sed
  => Ni principes ni princesas
  => Necesito drogas y amor
  => La vereda de la puerta de atras
  => Bulerias de la sangre caliente
  => Primer movimiento: El sueño
  => Segundo movimiento: Lo de fuera
  => Tercer movimiento: Lo de dentro
  => Cuarto Movimiento
  => Coda flamenca (Otra realidad)
  DIBUJOS & PINTURAS
  CARICATURAS (VIZCARRA)
  DIBUJOS (AZAGRA)
  CURIOSIDADES
  ENCUESTA
  PUZZLES
  FONDOS DE ESCRITORIO
  AVATARES
  LINKS
  TRIBUTO A...
  CONTACTO
  CONTADOR DE VISITAS
Sube la marea: 177540 visitantes
Mezclar agua con sed

RIFF1 X 4

Como limones
sus recuerdos son como limones
que a mordiscos me he comido enteros           }RIFF2 X 4
y ahora ya no tengo sensaciones.

Como alimento
me sirve tu palabra y de tu aliento
salen las revoluciones                        }RIFF2 X 4
¡poeta,haz volar nuestros corazones!

Que todo lo que quiero y más
cabe en la frase que me haga sentirme bien
y que se me llene de fuego                    }RIFF3 X 2
hasta el rincón mas apagado de la piel
¡Mezclar agua con sed!

RIFF1 X 4

Como aguijones
clavados en el centro de una herida
llevo todas sus despedidas                      }RIFF2 X 4
y olvido de la vida los valores.

Como cemento
me sirven tus palabras si no tengo
columna donde apoyarme                          }RIFF2 X 4
que no sean de aire lleno de silencio…

Que todo lo que quiero y más
cabe en la frase que me haga sentirme bien,
que me levante del suelo,
y me recuerda que aun queda por hacer           }RIFF3 X 2
¡Mezclar agua con sed!

RIFF1 X 1

Háblame de la luz que se ve donde estás tú      RIFF4 X 4
Háblame del color que se ve donde estoy yo      RIFF4 X 4


Cuentame el antídoto que guarda de las setas el veneno
que ando tan perdido que me como todo lo que hay por el suelo…    }RIFF5

RIFF1 X 8 + SOLO

Con pies de plomo
vuelvo a la vida desde el abandono
tengo tan dura la cabeza                               }RIFF2 X 4
que tropiezo más de dos veces con todo.

Abre la puerta
y deja que entre la naturaleza
y ahora que ya no estás solo                           }RIFF2 X 4
verás como te coje miedo el lobo…

Que todo lo que quiero y más
cabe en la frase que me haga sentirme bien,
que me recuerde que puedo
alzar el vuelo solamente con hacer              }RIFF3 X 2
¡Mezclar agua con sed!

RIFF1 X  1

Háblame de la luz que se ve donde estás tú      RIFF4 X 4
Háblame del color que se ve donde estoy yo      RIFF4 X 4

SOLO FINAL

RIFF FINAL

RIFF1
e ----------------------|---------------|------------------------
B --------------------- |---------------|------------------------
G ----------------------|---------------|-------------------------
D ----------------------|---------------|-------------------------
A -------0--3---2-------|--0------------|--------0--3--2----------
E --0--3----------3--0--|-----3-2--0----|--0--3----------3--0-----


RIFF2
e ---------------------------------|------
B ---------------------------------|------
G --------9--9---5---7---7---5-----|------
D --------9--9---5---7---7---5-----|------
A --------7--7---3---5---5---3-----|------
E ---------------------------------|------


RIFF3
e -----------------------------------------------------
B --------------------------------------- -------------
G -----------------------------------------------------
D -----------5--------------7-------------9------------
A -----------5--------------7-------------9------------
E ------3----3-----3---5--- 5----5---7----7------------


RIFF4
e -----------------------------------------
B --------------------------------------- -
G -----------------------------------------
D -----------------------------------------
A -------7---5----7----5----3--------------
E -----------------------------------------

RIFF5
e ----------------|--------------------------------
B ----------------|--------------------- ----------
G -------5---7----|----5----7----5----9----7-------
D -------5---7----|----5----7----5----9----7-------
A -------3---5----|----3----5----3----7----5--------
E ----------------|---------------------------------

e ----------------|--------------------------------
B ----------------|--------------------- ----------
G -------5---7----|------------5----7----9---------
D -------5---7----|------------5----7----9---------
A -------3---5----|---X---X----3----5----7---------
E ----------------|--------------------------------

RIFF FINAL
e --------------------------------------------------------------
B --------------------------------------- ----------------------
G --------------------------------------------------------------
D ------------------------------------------------------------ -
A ----0-3-2---0-3-5-3---0-3-7-5---0-3-8-7-5-7---0-3-2-0--0------
E -0-3-----0-3-------0-3-------0-3-----------0-3---- ---3-------

SOLO BASE

e ----7-5----5-7---------------------------------------------------
B ---------8-------7--5-----5-7--------------- --------------------
G -----------------------7------6-4-----4--6-----------------------
D -----------------------------------7---------4--------- ---------
A -----------------------------------------------------------------
E ------------------------------------------------------------ ----

e --------------------------------5--------------------------------
B ----------------------5---7------------ -------------------------
G -------------4--6------------------------------------------------
D -----4--7--------------------------------------------------- ----
A -----------------------------------------------------------------
E ------------------------------------------------------------ ----

e ----7-5----5-7---------------------------------------------------
B ---------8-------7--5-----5-7--------------- --------------------
G -----------------------7------6-4-----4--6-----------------------
D -----------------------------------7---------4--------- ---------
A -----------------------------------------------------------------
E ------------------------------------------------------------ ----

DISCOGRAFÍA  
 
 
Publicidad  
   
DESCARGA SU BIBLIOGRAFÍA  
   
=> ¿Desea una página web gratis? Pues, haz clic aquí! <=