EXTREMODURO
SECCIONES  
  INICIO
  BIOGRAFÍA
  ROLLING STONES 2011: EXTREMODURO
  EL VIAJE INTIMO DE LA LOCURA
  CONCIERTOS EN RED
  DISCOGRAFÍA
  SINGLES
  RAREZAS Y COLABORACIONES
  FOTOGRAFÍAS
  ENTREVISTAS
  RECORTES
  BIBLIOGRAFIA
  VIDEOTECA
  VIDEOCLIPS
  ENTRADAS
  ACORDES
  => A Fuego
  => Abrazado a la tristeza
  => Amor castúo
  => Bribriblibli
  => Buscando una luna
  => Correcaminos estate al loro
  => De acero
  => Tu corazon
  => Ama, ama, ama y ensancha el alma
  => La carrera
  => Mezclar agua con sed
  => Ni principes ni princesas
  => Necesito drogas y amor
  => La vereda de la puerta de atras
  => Bulerias de la sangre caliente
  => Primer movimiento: El sueño
  => Segundo movimiento: Lo de fuera
  => Tercer movimiento: Lo de dentro
  => Cuarto Movimiento
  => Coda flamenca (Otra realidad)
  DIBUJOS & PINTURAS
  CARICATURAS (VIZCARRA)
  DIBUJOS (AZAGRA)
  CURIOSIDADES
  ENCUESTA
  PUZZLES
  FONDOS DE ESCRITORIO
  AVATARES
  LINKS
  TRIBUTO A...
  CONTACTO
  CONTADOR DE VISITAS
Sube la marea: 174679 visitantes
Primer movimiento: El sueño
Intro:
e|--0-------------------|-—--------------|
B|----0-----------------|----------------|
G|------0-2-4-----------|----------------|
D|------------2-4-5-----|----------------|
A|-------------------4-5|----------------|
E|----------------------|----------------|

Em                                               A
No hay nada en el espejo persigo mis reflejos igual que en los sueños.
Em                                                 A
De andar desorientado voy cayendo en picado, es igual que un mal sueño.
E                                         A
La vida es roja si te vas y me derrota igual que en los sueños,
E                                             A
me olvido y ya no se qué hacer no dejo de correr, como en sueños.
Em                                                    A
Te estaba dando un beso y mis labios no eran esos, igual que un mal sueño.
Em                                                     A
La gente está que trina y la letra se me olvida, es igual que en mis sueños
E                                         A
La vida es roja si te vas y me derrota igual que en los sueños,
E                                             A
me olvido y ya no se qué hacer no dejo de correr, como en sueños.
C                     A*                   B               C
Si no te vuelvo a ver, no quiero despertar, la realidad no me abandona.
A*                   B                     C
Busco un mundo mejor y escarbo en un cajón por si aparece entre mis cosas.

  G                    E                    B             X2   C     D
e|--------------------|--------------------|--------------------|
B|--------------------|--------------------|--------------------|
G|---4-4-4-4-2-0------|---4-4-4-4-2-0-----4|---2-0--------4-----|
D|---------------4h5-0|---------------4h5--|---------4-5--------|
A|--------------------|--------------------|--------------------|
E|--------------------|--------------------|--------------------|

   G                    B                       Em      D       C
Buscando mi destino, viviendo en diferido, sin ser, ni oír, ni dar...
    G                    B                     Em     D     C
y a cobro revertido quisiera hablar contigo y así sintonizar...
  G                    E                    B             X3
e|--------------------|--------------------|--------------------|
B|--------------------|--------------------|--------------------|
G|---4-4-4-4-2-0------|---4-4-4-4-2-0-----4|---2-0--------4---- |
D|---------------4h5-0|---------------4h5--|---------4-5--------|
A|--------------------|--------------------|--------------------|
E|--------------------|--------------------|--------------------|

G                    E                    B             A*
e|--------------------|--------------------|--------------------|
B|--------------------|--------------------|--------------------|
G|---4-4-4-4-2-0------|---4-4-4-4-2-0-----4|---2-0--------2-----|
D|---------------4h5-0|---------------4h5--|---------4-5--------|
A|--------------------|--------------------|--------------------|
E|--------------------|--------------------|--------------------|

E A (Varias veces en quintas)

Em y A en acordes tocando solo las 3 últimas cuerdas
Em                                                      A
No hay día q me levante y no haya muertos delante es peor que un mal sueño
Em                                                           A
Hoy han dicho en la tele que han muerto tres mujeres y que han sido ellos.
E                                                     A
Que un hombre bomba entro en un bar dispuesto a dialogar con sus muertos.
E                                            A
Que bombardean una ciudad y algo ha salido mal, por supuesto.

e|--0-----------------------|-—--------------|
B|----0---------------------|----------------|
G|------0-2-4---------------|----------------|
D|------------2-4-5---------|----------------|
A|-------------------4/9/15-|----------------|
E|--------------------------|----------------|

Em                                                  A
Una bomba inteligente ha matado al presidente, pensó que era bueno,
Em                                                    A
y dicen por la tele que han muerto más mujeres y que han sido ellos.
E                                         A
La vida es roja si te vas y me derrota igual que en los sueños,
E                                             A
me olvido y ya no se qué hacer no dejo de correr, como en sueños.
C                    A*                    B               C
Si no te vuelvo a ver, no quiero despertar, la realidad no me abandona.
A*                   B                     C
Busco un mundo mejor y escarbo en un cajón por si aparece entre mis cosas.
  G                    E                    B             X2   C     D
e|--------------------|--------------------|--------------------|
B|--------------------|--------------------|--------------------|
G|---4-4-4-4-2-0------|---4-4-4-4-2-0-----4|---2-0--------4-----|
D|---------------4h5-0|---------------4h5--|---------4-5--------|
A|--------------------|--------------------|--------------------|
E|--------------------|--------------------|--------------------|

    G                    B                      Em      D       C
Buscando mi destino, viviendo en diferido, sin ser, ni oír, ni dar...
    G                    B                    Em     D     C
y a cobro revertido quisiera hablar contigo y así sintonizar...

e|--------------------------------|--------------------|--------|
B|--------------------------------|--------------------|--------|
G|--------------------------------|--------------------|--------|
D|----9---9--9---7---7--7---5--5-5|-4--4--5--7---------|--------|
A|-10---10-10--9----9--9--7---7-7-|-5--6--7--9---------|--------|
E|--------------------------------|--------------------|--------|

e|--------------------------------|--------------------|--------|
B|--------------------------------|--------------------|--------|
G|--------------------------------|--------------------|--------|
D|----9---9--9---7---7--7---5--5-5|-4--4--5--7--7^-6^-5|--------|
A|-10---10-10--9----9--9--7---7-7-|-5--6--7--9--9^-8^-7|--------|
E|--------------------------------|--------------------|--------|

A* = e|-----------|
     B|-----------|
     G|--2--------|
     D|--2--------|
     A|-----------|
     E|-----------|

Em = e|-----------|
     B|-----------|
     G|---9-------|
     D|---9-------|
     A|-7---------|
     E|-----------|

E =  e|-----------|
     B|-----------|
     G|-----------|
     D|--2--------|
     A|--2--------|
     E|-----------|

^= hacia abajo
DISCOGRAFÍA  
 
 
Publicidad  
   
DESCARGA SU BIBLIOGRAFÍA  
   
=> ¿Desea una página web gratis? Pues, haz clic aquí! <=