EXTREMODURO
SECCIONES  
  INICIO
  BIOGRAFÍA
  ROLLING STONES 2011: EXTREMODURO
  EL VIAJE INTIMO DE LA LOCURA
  CONCIERTOS EN RED
  DISCOGRAFÍA
  SINGLES
  RAREZAS Y COLABORACIONES
  FOTOGRAFÍAS
  ENTREVISTAS
  RECORTES
  BIBLIOGRAFIA
  VIDEOTECA
  VIDEOCLIPS
  ENTRADAS
  ACORDES
  => A Fuego
  => Abrazado a la tristeza
  => Amor castúo
  => Bribriblibli
  => Buscando una luna
  => Correcaminos estate al loro
  => De acero
  => Tu corazon
  => Ama, ama, ama y ensancha el alma
  => La carrera
  => Mezclar agua con sed
  => Ni principes ni princesas
  => Necesito drogas y amor
  => La vereda de la puerta de atras
  => Bulerias de la sangre caliente
  => Primer movimiento: El sueño
  => Segundo movimiento: Lo de fuera
  => Tercer movimiento: Lo de dentro
  => Cuarto Movimiento
  => Coda flamenca (Otra realidad)
  DIBUJOS & PINTURAS
  CARICATURAS (VIZCARRA)
  DIBUJOS (AZAGRA)
  CURIOSIDADES
  ENCUESTA
  PUZZLES
  FONDOS DE ESCRITORIO
  AVATARES
  LINKS
  TRIBUTO A...
  CONTACTO
  CONTADOR DE VISITAS
Sube la marea: 174611 visitantes
Segundo movimiento: Lo de fuera
Introducción violín

  A-                 E-                B-            C
E --------------------------------------------------------------------
B --------------------------------------------------------------------
G 12-----11-12-14-16-----11-12-14-16-11---11-12-14-16p-14p-12p-11p-s-9
D --14-14-----------14-14----------------14---------------------------
A --------------------------------------------------------------------
E --------------------------------------------------------------------


          A-
Se acabó.
                        E-
El odio me royó la razón,
                               B-  C
Con mi época estoy comprometido.
         A-
Y el amor
                           E-
se fue volando por el balcón
                          B-  C
Adonde no tuviera enemigos


C   B-     A-                            E-
Y ahora estoy en guerra con mi alrededor.
                              B-   C
No me hace falta ningún motivo;
C   B-     A-                            E-
Y es que  soy maestro de la contradicción
                                B-   C……..
Y experto de romper lo prohibido

GUITAR DISTORSIÓN caña


      E-                    B-                 C      D
E -------------------------------------------|----------------
B -------------------------------------------|---------------
G -------------------------------------------|----5------7----
D -------5-5---------------------------------|----5------7-----
A ---7-7-----7-7-5-5--------5-5--------------|-3------5--------
E ---------------------7-7-------7-7---5-5---|---------------




E-        B-               C    D            E-
Y por eso los chiquillos ya se acercan a mi,
B.                   C   D
Que intento ser feliz.
E-               B-              C     D          E-
Y desde entonces de esta cárcel no me dejan salir,
B-               C
Ni tengo adonde huir
D                  E-
Voy hacer un butron
B-            C          D
Que saque la cabeza fuera.
                                      GUITAR 2
E-B-C D   E-B-C D                     preso
Sigo       preso,                   A  --7----------------------
                                    E  -----7-8-10-8-7----------
E-       B-           C      D           E-   B-   C D
Pero ahora el viento corre alrededor
C
Por mis pecados, sigo preso,





                                       GUITAR 2
E- B- C D     E- B- C D                hueso
Carne y       hueso.                A  --7----------------------
                                    E  -----7-8-10-8-7----------



E-       B-           C      D           E-   B-   C D
Si muere de hambre el mundo alrededor,
C
Tú y yo, total, de carne y hueso.

  E-                           B-        C       D
G 9-9-12-12-9-9-----------------------------------------------
D -------------12-12-9-9-12-12-9-9----------10-------12-------
A ---------------------------------12-12----10-------12-------
E ---------------------------------------8-------10-----------

E-           B-            C              D
Por dinero, los maderos, ¡ay!, van detrás de mi,
E-   B-      C   D
Que intento ser feliz
E-          B-              C         D
Y abocado, a los tejados, me he mudado a vivir,
E-
Por desobedecer,
B-
Por ver el sol salir,
C                   D
Por sacar la cabeza fuera.

                                      GUITAR 2
E-B-C D   E-B-C D                     preso
Sigo       preso,                   A  --7----------------------
                                    E  -----7-8-10-8-7----------
E-       B-           C      D           E-   B-   C D
Pero ahora el viento corre alrededor
C
Por mis pecados, sigo preso,
                                       GUITAR 2
E- B- C D     E- B- C D                hueso
Carne y       hueso.                A  --7----------------------
                                    E  -----7-8-10-8-7----------
E-       B-           C      D           E-   B-   C D
Si muere de hambre el mundo alrededor,
C
Tú y yo, total, de carne y hueso.

  E-                           B-        C       D
G 9-9-12-12-9-9-----------------------------------------------
D -------------12-12-9-9-12-12-9-9----------10-------12-------
A ---------------------------------12-12----10-------12-------
E ---------------------------------------8-------10-----------


                G  E-  B-
Necesito  saber,            GUITAR 2
   C            G  E-  B-  G 11 S-12-12-12--------11S-12-12-12--
Dime tu nombre,            D -------------14-14-12-------------14-14-12-11V
   C                 G E- B-
De dónde sale el sol
   C                 G E- B-
Y de qué se esconde.
G                   E-                         B-     C
Si miro alrededor, no puedo comprender, me da pereza.
G                   E-                         B-        C
Si hay algún escalón pa´ dar un tropezón, voy de cabeza.

GUITAR 2
A -9S-10-10-10--------
E -------------12-12-10

G                   E-                     B-            C
Tú y yo en la habitación para que vuelva Amor: naturaleza.
G                   E-                 B-           C
Hay un televisor en medio del salón. No me interesa.
             G              E-           B-    C
Vente a la sombra, amor, que yo te espero;
             G             E-             B-   C
Que tengo el corazón aquí con bien de hielo.
             G              E-            B-    C
Vente a la sombra, vente amor, que te espero;
               G           E-                      C
Que tengo ya el cerezo en flor dentro del cuerpo.


A-                 E-                B-            C
E --------------------------------------------------------------------
B --------------------------------------------------------------------
G 12-----11-12-14-16-----11-12-14-16-11---11-12-14-16p-14p-12p-11p-s-9
D --14-14-----------14-14----------------14---------------------------
A --------------------------------------------------------------------
E --------------------------------------------------------------------


        A-                          E-
Se me cae la casa desde que se marchó.
                                B-  C
Y ahora ya sólo espero el derribo,
            A-                      E-
Y es que perdí la pista del eje del salón,
                             B-   C
Y estoy continuamente torcido.
   A-                   E-
Y ahora sólo pienso en ella
                     B-
Y no encuentro razones
                  C..               C B     A-
Cuando su recuerdo se me clava entre las cejas
             E-                     B-
Sueño con melones encima de la mesa.

G ---12--12—12-11-12-14--14—14-12-14-16---16—16-16-14-12-11---
D -14--14--14----------14--14----------14---14----------------

G
Buscando mi destino,
B-
Viviendo en diferido,
E-       D       C
Sin ser, ni oír, ni dar.
G
Y a cobro revertido
B-
Quisiera hablar contigo
E-      D       C
Y, así, sintonizar


E --------------------------------------|----------------------------
B --------------------------------------|----------------------------
G --------------------------------------|----------------------------
D --------------------------------------|----------------------------
A -----S-777-------------S-777----------|--------S-9V7------7-S9-----
E ------------10-9-10----------10-9-10--|---------------10-----------


A-
Sueño que empieza otra canción;
E-                   B-   C
Vivo en el eco de su voz, entretenido.
A-
Sigo la estela de su olor,
E-                    B- C
Que me susurra vámonos, vente conmigo.

A-                          E-
Hay un desierto, hay un vergel
                        B-
Lleno de flores de papel.
C        C  B-
Pensaba.
A-                     E-
Que seria frió el amanecer.
                       B-
Te equivocabas otra vez;
C         C B-
Quemaba.
A-                     E-        B-
Llegó el verano y asolo la primavera,

A-                         E-  B-  C…
Y el sol asfixia en tu jardín,
A-                     E-             B-
Y se le caen los pajaritos a la higuera,
A-                     E-  B-  C
Que ya no cantan para mí.



A-                  E-
Abrí los ojos para ver;
                         B-
Con el destino me encontré
       C     C B-
De cara.

A-                      E-
Lo tengo todo a medio hacer.
                       B-
Me preguntaba si tal vez…
      C   C  B-
Mañana.

SOLO ……….
              G  E-  B-
Necesito saber.
  C            G  E-  B-
Dime tu nombre,
  C            G  E-  B-
De dónde sale el sol
  C
Y de que se esconde.


            G              E-           B-    C
Vente a la sombra, amor, que yo te espero;
            G              E-           B-    C
Que tengo el corazón aquí con bien de hielo.
            G              E-           B-    C
Vente a la sombra, vente amor, que te espero;
            G              E-           B-    C
Que tengo ya el cerezo en flor dentro del cuerpo.



G                   E-                    B-          C
Si miro alrededor, no puedo comprender, me da pereza.
G                   E-                    B-          C
Si hay algún escalón pa´dar un tropezón, voy de cabeza.
G                   E-                    B-                     C
Tú y yo en la habitación, para que vuelva Amor: chorros de lefa.
G                   E-                    B-          C
La buena educación de la televisión no me interesa.



DISCOGRAFÍA  
 
 
Publicidad  
   
DESCARGA SU BIBLIOGRAFÍA  
   
=> ¿Desea una página web gratis? Pues, haz clic aquí! <=