EXTREMODURO
SECCIONES  
  INICIO
  BIOGRAFÍA
  ROLLING STONES 2011: EXTREMODURO
  EL VIAJE INTIMO DE LA LOCURA
  CONCIERTOS EN RED
  DISCOGRAFÍA
  SINGLES
  RAREZAS Y COLABORACIONES
  FOTOGRAFÍAS
  ENTREVISTAS
  RECORTES
  BIBLIOGRAFIA
  VIDEOTECA
  VIDEOCLIPS
  ENTRADAS
  ACORDES
  => A Fuego
  => Abrazado a la tristeza
  => Amor castúo
  => Bribriblibli
  => Buscando una luna
  => Correcaminos estate al loro
  => De acero
  => Tu corazon
  => Ama, ama, ama y ensancha el alma
  => La carrera
  => Mezclar agua con sed
  => Ni principes ni princesas
  => Necesito drogas y amor
  => La vereda de la puerta de atras
  => Bulerias de la sangre caliente
  => Primer movimiento: El sueño
  => Segundo movimiento: Lo de fuera
  => Tercer movimiento: Lo de dentro
  => Cuarto Movimiento
  => Coda flamenca (Otra realidad)
  DIBUJOS & PINTURAS
  CARICATURAS (VIZCARRA)
  DIBUJOS (AZAGRA)
  CURIOSIDADES
  ENCUESTA
  PUZZLES
  FONDOS DE ESCRITORIO
  AVATARES
  LINKS
  TRIBUTO A...
  CONTACTO
  CONTADOR DE VISITAS
Sube la marea: 178607 visitantes
A Fuego
Los solos no están completos, pero dicen bastante sobre
como tocarlos

Aquí expongo los riffs de la canción:

Riff 1
Gm  A  A# C  D
-3--5--6--8--10-
-3--5--6--8--10-
-3--6--7--9--11-
-5--7--8--10-12-
-5--7--8--10-12-
-3--5--6--8--10-


Riff 2
------------------
------------------
------------------
-------0-------0--
-----1-------3----
-3-3-----5-5------

Riff 3
------------------
------------------
------------------
-------7--------7-
-5-5-8---7-7-10---
------------------

Riff 4
 A# C  Gm Fm
-------------
-------8--7--
-3--5--7--6--
-3--5--5--4--
-1--3--------
-------------

Riff 5
A# C
------
------
-3--5-
-3--5-
-1--3-
------



Aquí empieza la canción:


Riff 1 (x2)

Riff 2 (x8)

(Al empezar la quinta vez del riff 2, la otra guitarra hace
a la vez: Riff 3 (x4))

Riff 4 (x2)

Riff 2 (x4)

Riff 2 (x4)
A fuego lento no se calientan mis huesos
Riff 3 (x4)
Y bajé al infierno a ver donde se cuecen tus besos

G             C                 D
Cansado de buscar un trocito de cielo lleno de pelo

Riff 4

Riff 5 (x4)
Y a deshora, sale un sol alumbrando una esquina
Y alegrándome el día


G5                A#5           D5      D#5
¿Dónde están los besos que te debo? En una cajita
    G5             A#5        D5          D#5
Que nunca llevo el corazón encima, por si me lo quitan

-13h15-13--------------------------------------------------
----------15-13-15-13--------------13-14-13----------------
----------------------15-12-12--15----------15-15p12----15-
-----------------------------------------------------15----
-----------------------------------------------------------
-----------------------------------------------------------


-------------------------------------------------------13--
-----13b15b15b15b15b15b-14b16b16b-13b15b15-15-13----15-----
-12----------------------------------------------15--------
-----------------------------------------------------------
-----------------------------------------------------------
-----------------------------------------------------------

----------13h15--13-18p15p13-18p15p13-18p15p13-18p15p13----
-15p13-----------------------------------------------------
-------15--------------------------------------------------
-----------------------------------------------------------
-----------------------------------------------------------
-----------------------------------------------------------


-19b20b20b-18p17-18p17-------15-18-15----------------------
-----------------------18-15-------------------------------
-----------------------------------------------------------
-----------------------------------------------------1-3---
-----------------------------------------------1-3-1-------
-----------------------------------------3-1-3-------------

-----------------------------------------------------------
-----------------------------------------------------------
-----------------------------------------------------------
---1---1-1-------------------------------------------------
-3---3-----------------------------------------------------
-----------------------------------------------------------

Riff 2 (x4)
Me salgo de mi casa me estrello contra la acera
Riff 3 (x4)
No puedo recordar que clase de mundo hay fuera

G             C                 D
Salté por la ventana buscando una liana y ¡árbol va! Tarzán
al suelo

Riff 4

Riff 2 (x4)
Y harto de buscarte siempre a oscuras y de volverme de puro hielo
Riff 2 (x4)
Tiré toda mi vida a la basura y ni las ratas se la comieron

Riff 4
Nadie me persigue pero yo acelero
Riff 4
Llaman a mi puerta y yo ya a nadie espero

----------------------15-20-18-17-18-17-15-----------------
-------------13-15-15----------------------15--------------
----12-14-15-----------------------------------------------
-12--------------------------------------------------------
-----------------------------------------------------------
-----------------------------------------------------------

G5                A#5           D5      D#5
¿Dónde están los besos que te debo? En una cajita
    G5             A#5        D5          D#5
Que nunca llevo el corazón encima, por si me lo quitan

G5                A#5           D5      D#5
¿Dónde están los besos que me debes? En cualquier esquina
    G5        A#5         D5              D#5
Cansados de vivir en u boquita, siempre a la deriva
-----------------------------------------------------------
----------11-------11----11-15-13----------15-13-----------
-------12----14-14----14----------15-15-12-------15-14-----
-12-12-----------------------------------------------------
-----------------------------------------------------------
-----------------------------------------------------------
D#                      C                 G5
Llevas en tus braguitas el amor de visita
D#                 C                 G5
En mis pantalones, entre los cojones
D#               C                G5
Voy a tatuarme a fuego una casita
D#                  C
Para que allí vivan nuestros corazones

Riff 1

Riff 5 (x4)
Y a deshora, sale un sol alumbrando una esquina
Y alegrándome el día


G5                A#5           D5      D#5
¿Dónde están los besos que te debo? En una cajita
    G5             A#5        D5          D#5
Que nunca llevo el corazón encima, por si me lo quitan

G5                A#5           D5      D#5
¿Dónde están los besos que me debes? En cualquier esquina
    G5        A#5         D5              D#5
Cansados de vivir en u boquita, siempre a la deriva

A#5                                         G5
Cuando ya no puedo más, salgo para respirar
A#5                                           G5
Un ratito por aquí que lo tengo en carne viva
A#5                                                G5
Solo un poco de calor hace que me vuelva a la vida
A#5                                                G5
Y lo pongo a secar al sol, escondido en un renglón


Riff 5 (x4)
Y a deshora, sale un sol alumbrando una esquina
Y alegrándome el día

G5               A#5          D5         D#5
¿Dónde están los besos que te debo? En una cajita
    G5             A#5        D5          D#5
Que nunca llevo el corazón encima, por si me lo quitan

G5                A#5           D5      D#5
¿Dónde están los besos que me debes? En cualquier esquina
    G5        A#5         D5              D#5
Cansados de vivir en u boquita, siempre a la deriva

*¿Dónde están los besos que te debo? En una cajita
    G5             A#5        D5          D#5
Que nunca llevo el corazón encima, por si me lo quitan

G5                A#5           D5      D#5
¿Dónde están los besos que me debes? En cualquier esquina
    G5        A#5         D5              D#5
Cansados de vivir en tu boquita

G5               A#5          D5        D#5
¿Dónde están los besos que te debo?
G5               A#5           D5       D#5
¿Dónde están los besos que me debes?

* (Al empezar esta parte, hace esto hasta el solo:)
-15-13-----------------------------------------------|
-------16-15----16-15-13-15-13-----8-----------------|
-------------15----------------------10-8-7----8-7---|x2
--------------------------------------------10-------|
-----------------------------------------------------|
-----------------------------------------------------|

----15----15-20-18-15-17p15-13-15p13--------15-------------
-15----15----------------------------13-15-----15-16-15-13-
-----------------------------------------------------------
-----------------------------------------------------------
-----------------------------------------------------------
-----------------------------------------------------------

-----------------------------------------------------------
-13----13-13-----------------------------------------------
----15-------14-15-14--------12-14-15-12-14-15-14-15-17-15-
----------------------15-----------------------------------
-------------------------13--------------------------------
-----------------------------------------------------------

-----------------------------------------------------------
-13h15-13--------------------------------13-15-16-15-13-13-
----------15-14-15-14----------14-----15-------------------
----------------------17-15-17----17-----------------------
-----------------------------------------------------------
-----------------------------------------------------------

---------------------15-17-15-16-15-17-18-20-18-17-17-18-20
------------------15---------------------------------------
-15-15-14-14-12--------------------------------------------
-----------------------------------------------------------
-----------------------------------------------------------
-----------------------------------------------------------

-22-15-17-18-20-18-17-15--17-18-20-22-22-20b22-----11------
------------------------------------------------------15-15
------------------------------------------------12---------
-----------------------------------------------------------
-----------------------------------------------------------
-----------------------------------------------------------

----------15-17-15-17-18-17-15-----------------------------
-15-12-------------------------18-17-15-15-18-17-17-15-----
-------14--------------------------------------------------
-----------------------------------------------------------
-----------------------------------------------------------
-----------------------------------------------------------

----15-17-18----17-18-20----15-18-22-20-18-17-18-20-20-18--
-15----------15----------15--------------------------------
-----------------------------------------------------------
-----------------------------------------------------------
-----------------------------------------------------------
-----------------------------------------------------------

-17----15--------------------------------------------------
----15-----------------------------------------------------
-----------------------------------------------------------
-----------------------------------------------------------
-----------------------------------------------------------
-----------------------------------------------------------
DISCOGRAFÍA  
 
 
Publicidad  
   
DESCARGA SU BIBLIOGRAFÍA  
   
=> ¿Desea una página web gratis? Pues, haz clic aquí! <=