EXTREMODURO
SECCIONES  
  INICIO
  BIOGRAFÍA
  ROLLING STONES 2011: EXTREMODURO
  EL VIAJE INTIMO DE LA LOCURA
  CONCIERTOS EN RED
  DISCOGRAFÍA
  SINGLES
  RAREZAS Y COLABORACIONES
  FOTOGRAFÍAS
  ENTREVISTAS
  RECORTES
  BIBLIOGRAFIA
  VIDEOTECA
  VIDEOCLIPS
  ENTRADAS
  ACORDES
  => A Fuego
  => Abrazado a la tristeza
  => Amor castúo
  => Bribriblibli
  => Buscando una luna
  => Correcaminos estate al loro
  => De acero
  => Tu corazon
  => Ama, ama, ama y ensancha el alma
  => La carrera
  => Mezclar agua con sed
  => Ni principes ni princesas
  => Necesito drogas y amor
  => La vereda de la puerta de atras
  => Bulerias de la sangre caliente
  => Primer movimiento: El sueño
  => Segundo movimiento: Lo de fuera
  => Tercer movimiento: Lo de dentro
  => Cuarto Movimiento
  => Coda flamenca (Otra realidad)
  DIBUJOS & PINTURAS
  CARICATURAS (VIZCARRA)
  DIBUJOS (AZAGRA)
  CURIOSIDADES
  ENCUESTA
  PUZZLES
  FONDOS DE ESCRITORIO
  AVATARES
  LINKS
  TRIBUTO A...
  CONTACTO
  CONTADOR DE VISITAS
Sube la marea: 175667 visitantes
Ni principes ni princesas
Rift 1
e|-------------------------------------------------|
B|-------------------------------------------------|
G|-----------------5---------------------5---------|
D|--5--------------5------5--------------5---------|
A|--5--------------3------5--------------3---------|
E|--3---------------------3------------------------|
p.m.  ...........           ...........

Rift 2
e|-------------------------------------------------|
B|-------------------------------------------------|
G|--------------------5----------5-7---------------|
D|--8--------3--------5----------5-7---------------|
A|--8--------3--------3----------3-5---------------|
E|--6--------1-------------------------------------|

Rift 3 Punteillo
e|-------------------------|   e|------------------------|
B|-------------------------|   B|--11-10-11-10-8---------|
G|---8-------7-------------|   G|----------------10-8----|
D|---8-------7--------5----|   D|------------------------|
A|---6-------5--------5----|   A|------------------------|
E|--------------------3----|   E|------------------------|

Rift 4
e|-------------------------------------------------------|
B|-------------------------------------------------------|
G|------3----------5---------------------5--------5--7---|
D|---5--3---5-3-5--5---8-7-8-------7-----5--------5--7---|
A|---5--1---5-3-5--3---8-7-8-------7-----3--------3--5---|
E|---3------5-1-3------6-5-6-------5---------------------|
p.m.      ......

Intro

Rift 1
Arrancada, pobre flor
Rift 2
sólo buscaba algo mejor
Rift 1
desgarrada, sin amor
Rift 2
nunca vendío su corazón.
Rift 3 + Punteillo
De una patada rompo el sol.
Rift 3 + Punteillo
De una patada rompo el sol.
Rift 3 + Rift 4
De una patada rompo el sol.
De una patada rompo el sol.

Engañados, no sé por qué
yo me lo creo y tu también
qué bonito, que ilusión
cómo me duele este ulcerón.
De una patada rompo el sol. (x4)

Interludio (algo parecido a la intro con movidas
extrañas)

Mis ventanas muros son
ni tengo puertas ni balcón
no te pares a oir mi voz
voy derechito a un paredón.
De una patada rompo el sol. (x4)


DISCOGRAFÍA  
 
 
Publicidad  
   
DESCARGA SU BIBLIOGRAFÍA  
   
=> ¿Desea una página web gratis? Pues, haz clic aquí! <=